Mga kataga » Gitara

Malahelo (Tselatra)

Hiran'i Tselatra rehetra: Tselatra

Fampidirana
G C (4x)
-------
G D  Em
C Bm Am
(2x)
Tonony 1
G         D                       Em
 Malahelo aho fa hody ianao rahampitso 
… 204 more words
Acoustic Gasy

Typy gitar akustycznych

 Gitary akustyczne różnią się między sobą nie tylko sposobem wykonania i materiałem wykorzystanym do ich budowy, ale przede wszystkim rodzajem i kształtem pudła.

Przy wyborze akustyka musimy wiedzieć, czym różnią się poszczególne typy – ale jak je sklasyfikować? 252 more words

Akustyczna

Very Aho Akia (Johary)

Hiran'i ny Johary rehetra: Johary
Capo: 2

Fampidirana - Tab
                   Am        Dm
e|-8-5---------------------5---------3-
g|-----8-5-------------3---------3-----
g|---------7-5-4-5---5---5-----5---5---
D|---------------------------0---------
A|-----------------0-------------------
E|-------------------------------------
   Am        Dm
e|---------5---------0-
g|-----3---------3-----
g|---5---5-----5---5---
D|-----------0---------
A|-0-------------------
E|-------------------- 178 more words
Acoustic Gasy

Harana

Harana

Ang tinig mong kay lamig tulad ng hangin ngayong gabi ang nagpainit sa aking puso. Ang iyong kanta na sinasaluhan pa ng pagtunog ng gitara ay kung saan ko nakamtan ang kapayapaan. 206 more words

Filipino

Bodek Janke i adaptacje piosenek ludowych

Dla mnie rewelacja. “Miała baba koguta” zaśpiewane ze wschodnim akcentem, zagrane na perkusji, na gitarze i więcej!

Zderzają się tutaj tak różne klimaty – dzikiego stepu, zacisznej polskiej chaty, klubu jazzowego… “Saszka i Griszka” to przepyszne danie kuchni rozległej od Polski na wschód. 39 more words